Announcement

Collapse
No announcement yet.

Bladed Fervor - Aclaracion

Collapse
X
  • Filter
  • Time
  • Show
Clear All
new posts

  • Bladed Fervor - Aclaracion

    Puede parecer que las siguientes skill (Bladed Fervor/Filo Ardiente, Saber Rattle/Sable Cascabel y Krav Maga) estan bug y no dan los atributos que dice la descripcion. En realidad lo que esta bug es la descripcion, la cual pertenece a su lvl10 y no cambia. Asi deberia ser:

    Bladed Fervor/Filo Ardiente

    Nivel Skill | Criticos | Nivel Ataque | Nivel Defensa | Duracion
    ----1----- | ---1--- | ------0------ | ------0------- | --15min--
    ----2----- | ---1--- | ------0------ | ------0------- | --30min--
    ----3----- | ---1--- | ------1------ | ------0------- | --15min--
    ----4----- | ---1--- | ------1------ | ------0------- | --30min--
    ----5----- | ---1--- | ------2------ | ------0------- | --15min--
    ----6----- | ---1--- | ------2------ | ------0------- | --30min--
    ----7----- | ---1--- | ------3------ | ------0------- | --15min--
    ----8----- | ---1--- | ------3------ | ------0------- | --30min--
    ----9----- | ---1--- | ------3------ | ------1------- | --15min--
    ---10----- | ---1--- | ------3------ | ------1------- | --30min--


    Saber Rattle/Sable Cascabel

    Nivel Skill | Nivel Ataque
    ----1----- | ------1------
    ----2----- | ------2------
    ----3----- | ------3------


    Krav Maga

    Nivel Skill | Nivel Defensa
    ----1----- | -------1-------
    ----2----- | -------3-------
    ----3----- | -------5-------



    Como añadido recuerden que este buff solo afecta al arma, asi que no veran ningun icono debajo de la informacion del pj. En esta imagen se ve como sale en el arma:

    Last edited by CZYellow; 11-11-2011, 02:41 PM.
    ¿No te gustan las misiones en español? ¿Actualizaste y las vuelves a tener en español? Descarga este archivo y solucionado
Working...
X